ISO-10303-21;
HEADER;
FILE_DESCRIPTION(('STEP AP214'),'1');
FILE_NAME('soil.stp','2022-09-07T20:55:10',(' '),(' '),'Spatial InterOp 3D',' ',' ');
FILE_SCHEMA(('AUTOMOTIVE_DESIGN { 1 0 10303 214 1 1 1 1 }'));
ENDSEC;
DATA;
#1=MECHANICAL_DESIGN_GEOMETRIC_PRESENTATION_REPRESENTATION(' ',(#10),#6);
#2=PRODUCT_DEFINITION_CONTEXT('',#11,'design');
#3=APPLICATION_PROTOCOL_DEFINITION('INTERNATIONAL STANDARD','automotive_design',1994,#11);
#4=PRODUCT_CATEGORY_RELATIONSHIP('NONE','NONE',#12,#13);
#5=SHAPE_DEFINITION_REPRESENTATION(#14,#15);
#6= (GEOMETRIC_REPRESENTATION_CONTEXT(3)GLOBAL_UNCERTAINTY_ASSIGNED_CONTEXT((#18))GLOBAL_UNIT_ASSIGNED_CONTEXT((#20,#21,#22))REPRESENTATION_CONTEXT('NONE','WORKSPACE'));
#10=STYLED_ITEM('',(#24),#25);
#11=APPLICATION_CONTEXT(' ');
#12=PRODUCT_CATEGORY('part','NONE');
#13=PRODUCT_RELATED_PRODUCT_CATEGORY('detail',' ',(#26));
#14=PRODUCT_DEFINITION_SHAPE('NONE','NONE',#27);
#15=ADVANCED_BREP_SHAPE_REPRESENTATION('\X2\04220432043504400434043E0435\X0\ \X2\04420435043B043E\X0\',(#25,#28),#6);
#18=UNCERTAINTY_MEASURE_WITH_UNIT(LENGTH_MEASURE(1.0E-08),#20,'','');
#20= (CONVERSION_BASED_UNIT('METRE',#31)LENGTH_UNIT()NAMED_UNIT(#34));
#21= (NAMED_UNIT(#36)PLANE_ANGLE_UNIT()SI_UNIT($,.RADIAN.));
#22= (NAMED_UNIT(#36)SOLID_ANGLE_UNIT()SI_UNIT($,.STERADIAN.));
#24=PRESENTATION_STYLE_ASSIGNMENT((#42));
#25=MANIFOLD_SOLID_BREP('\X2\04220432043504400434043E0435\X0\ \X2\04420435043B043E\X0\',#43);
#26=PRODUCT('\X2\04220432043504400434043E0435\X0\ \X2\04420435043B043E\X0\','','PART--DESC',(#44));
#27=PRODUCT_DEFINITION('','NONE',#45,#2);
#28=AXIS2_PLACEMENT_3D('',#46,#47,#48);
#31=LENGTH_MEASURE_WITH_UNIT(LENGTH_MEASURE(1.0),#49);
#34=DIMENSIONAL_EXPONENTS(1.0,0.0,0.0,0.0,0.0,0.0,0.0);
#36=DIMENSIONAL_EXPONENTS(0.0,0.0,0.0,0.0,0.0,0.0,0.0);
#42=SURFACE_STYLE_USAGE(.BOTH.,#50);
#43=CLOSED_SHELL('',(#51,#52,#53,#54,#55,#56,#57,#58,#59,#60,#61,#62));
#44=PRODUCT_CONTEXT('',#11,'mechanical');
#45=PRODUCT_DEFINITION_FORMATION_WITH_SPECIFIED_SOURCE(' ','NONE',#26,.NOT_KNOWN.);
#46=CARTESIAN_POINT('',(0.0,0.0,0.0));
#47=DIRECTION('',(0.0,0.0,1.0));
#48=DIRECTION('',(1.0,0.0,0.0));
#49= (NAMED_UNIT(#34)LENGTH_UNIT()SI_UNIT($,.METRE.));
#50=SURFACE_SIDE_STYLE('',(#64));
#51=ADVANCED_FACE('0:23',(#65),#66,.F.);
#52=ADVANCED_FACE('0:29',(#67),#68,.F.);
#53=ADVANCED_FACE('0:26',(#69),#70,.F.);
#54=ADVANCED_FACE('0:23',(#71),#72,.F.);
#55=ADVANCED_FACE('0:26',(#73),#74,.F.);
#56=ADVANCED_FACE('0:29',(#75),#76,.F.);
#57=ADVANCED_FACE('0:32',(#77),#78,.T.);
#58=ADVANCED_FACE('0:35',(#79),#80,.T.);
#59=ADVANCED_FACE('0:38',(#81),#82,.T.);
#60=ADVANCED_FACE('0:41',(#83,#84),#85,.F.);
#61=ADVANCED_FACE('0:44',(#86),#87,.T.);
#62=ADVANCED_FACE('0:47',(#88,#89),#90,.T.);
#64=SURFACE_STYLE_FILL_AREA(#91);
#65=FACE_OUTER_BOUND('',#92,.T.);
#66=TOROIDAL_SURFACE('',#93,0.25,0.05);
#67=FACE_OUTER_BOUND('',#94,.T.);
#68=CYLINDRICAL_SURFACE('',#95,0.05);
#69=FACE_OUTER_BOUND('',#96,.T.);
#70=(B_SPLINE_SURFACE(1,2,((#98,#99,#100,#101,#102,#103,#104,#105,#106),(#107,#108,#109,#110,#111,#112,#113,#114,#115)),.UNSPECIFIED.,.F.,.T.,.F.)B_SPLINE_SURFACE_WITH_KNOTS((2,2),(3,2,2,2,3),(-31.5991201042201,0.0397742534757413),(0.0,0.0785398163397449,0.15707963267949,0.235619449019235,0.314159265358979),.UNSPECIFIED.)RATIONAL_B_SPLINE_SURFACE(((1.0,0.707106781186547,1.0,0.707106781186547,1.0,0.707106781186547,1.0,0.707106781186547,1.0),(1.0,0.707106781186547,1.0,0.707106781186547,1.0,0.707106781186547,1.0,0.707106781186547,1.0)))BOUNDED_SURFACE()REPRESENTATION_ITEM('')GEOMETRIC_REPRESENTATION_ITEM()SURFACE());
#71=FACE_OUTER_BOUND('',#122,.T.);
#72=TOROIDAL_SURFACE('',#123,0.25,0.05);
#73=FACE_OUTER_BOUND('',#124,.T.);
#74=(B_SPLINE_SURFACE(1,2,((#126,#127,#128,#129,#130,#131,#132,#133,#134),(#135,#136,#137,#138,#139,#140,#141,#142,#143)),.UNSPECIFIED.,.F.,.T.,.F.)B_SPLINE_SURFACE_WITH_KNOTS((2,2),(3,2,2,2,3),(-31.6171742534735,0.0217201042251922),(0.0,0.0785398163397449,0.15707963267949,0.235619449019235,0.314159265358979),.UNSPECIFIED.)RATIONAL_B_SPLINE_SURFACE(((1.0,0.707106781186547,1.0,0.707106781186547,1.0,0.707106781186547,1.0,0.707106781186547,1.0),(1.0,0.707106781186547,1.0,0.707106781186547,1.0,0.707106781186547,1.0,0.707106781186547,1.0)))BOUNDED_SURFACE()REPRESENTATION_ITEM('')GEOMETRIC_REPRESENTATION_ITEM()SURFACE());
#75=FACE_OUTER_BOUND('',#150,.T.);
#76=CYLINDRICAL_SURFACE('',#151,0.05);
#77=FACE_OUTER_BOUND('',#152,.T.);
#78=PLANE('',#153);
#79=FACE_OUTER_BOUND('',#154,.T.);
#80=PLANE('',#155);
#81=FACE_OUTER_BOUND('',#156,.T.);
#82=PLANE('',#157);
#83=FACE_BOUND('',#158,.T.);
#84=FACE_OUTER_BOUND('',#159,.T.);
#85=PLANE('',#160);
#86=FACE_OUTER_BOUND('',#161,.T.);
#87=PLANE('',#162);
#88=FACE_BOUND('',#163,.T.);
#89=FACE_OUTER_BOUND('',#164,.T.);
#90=PLANE('',#165);
#91=FILL_AREA_STYLE('',(#166));
#92=EDGE_LOOP('',(#167,#168,#169,#170,#171,#172));
#93=AXIS2_PLACEMENT_3D('',#173,#174,#175);
#94=EDGE_LOOP('',(#176,#177,#178,#179,#180));
#95=AXIS2_PLACEMENT_3D('',#181,#182,#183);
#96=EDGE_LOOP('',(#184,#185,#186,#187,#188));
#98=CARTESIAN_POINT('',(-2.89057246789836,-0.05,-0.0917392526411605));
#99=CARTESIAN_POINT('',(-2.89057246789836,-0.05,-0.0417474021129284));
#100=CARTESIAN_POINT('',(-2.89057246789836,0.0,-0.0417474021129284));
#101=CARTESIAN_POINT('',(-2.89057246789836,0.05,-0.0417474021129284));
#102=CARTESIAN_POINT('',(-2.89057246789836,0.05,-0.0917392526411605));
#103=CARTESIAN_POINT('',(-2.89057246789836,0.05,-0.141731103169393));
#104=CARTESIAN_POINT('',(-2.89057246789836,0.0,-0.141731103169393));
#105=CARTESIAN_POINT('',(-2.89057246789836,-0.05,-0.141731103169393));
#106=CARTESIAN_POINT('',(-2.89057246789836,-0.05,-0.0917392526411605));
#107=CARTESIAN_POINT('',(-1.30862775001357,-0.05,-0.0917392526411605));
#108=CARTESIAN_POINT('',(-1.30862775001357,-0.05,-0.0417474021129284));
#109=CARTESIAN_POINT('',(-1.30862775001357,0.0,-0.0417474021129284));
#110=CARTESIAN_POINT('',(-1.30862775001357,0.05,-0.0417474021129284));
#111=CARTESIAN_POINT('',(-1.30862775001357,0.05,-0.0917392526411605));
#112=CARTESIAN_POINT('',(-1.30862775001357,0.05,-0.141731103169393));
#113=CARTESIAN_POINT('',(-1.30862775001357,0.0,-0.141731103169393));
#114=CARTESIAN_POINT('',(-1.30862775001357,-0.05,-0.141731103169393));
#115=CARTESIAN_POINT('',(-1.30862775001357,-0.05,-0.0917392526411605));
#122=EDGE_LOOP('',(#189,#190,#191,#192,#193,#194));
#123=AXIS2_PLACEMENT_3D('',#195,#196,#197);
#124=EDGE_LOOP('',(#198,#199,#200,#201,#202));
#126=CARTESIAN_POINT('',(-2.89147517536104,-0.05,-0.0917392526411605));
#127=CARTESIAN_POINT('',(-2.89147517536104,-0.05,-0.0417474021129284));
#128=CARTESIAN_POINT('',(-2.89147517536104,0.0,-0.0417474021129284));
#129=CARTESIAN_POINT('',(-2.89147517536104,0.05,-0.0417474021129284));
#130=CARTESIAN_POINT('',(-2.89147517536104,0.05,-0.0917392526411605));
#131=CARTESIAN_POINT('',(-2.89147517536104,0.05,-0.141731103169393));
#132=CARTESIAN_POINT('',(-2.89147517536104,0.0,-0.141731103169393));
#133=CARTESIAN_POINT('',(-2.89147517536104,-0.05,-0.141731103169393));
#134=CARTESIAN_POINT('',(-2.89147517536104,-0.05,-0.0917392526411605));
#135=CARTESIAN_POINT('',(-1.3095304574761,-0.05,-0.0917392526411605));
#136=CARTESIAN_POINT('',(-1.3095304574761,-0.05,-0.0417474021129284));
#137=CARTESIAN_POINT('',(-1.3095304574761,0.0,-0.0417474021129284));
#138=CARTESIAN_POINT('',(-1.3095304574761,0.05,-0.0417474021129284));
#139=CARTESIAN_POINT('',(-1.3095304574761,0.05,-0.0917392526411605));
#140=CARTESIAN_POINT('',(-1.3095304574761,0.05,-0.141731103169393));
#141=CARTESIAN_POINT('',(-1.3095304574761,0.0,-0.141731103169393));
#142=CARTESIAN_POINT('',(-1.3095304574761,-0.05,-0.141731103169393));
#143=CARTESIAN_POINT('',(-1.3095304574761,-0.05,-0.0917392526411605));
#150=EDGE_LOOP('',(#203,#204,#205,#206,#207));
#151=AXIS2_PLACEMENT_3D('',#208,#209,#210);
#152=EDGE_LOOP('',(#211,#212,#213,#214));
#153=AXIS2_PLACEMENT_3D('',#215,#216,#217);
#154=EDGE_LOOP('',(#218,#219,#220,#221));
#155=AXIS2_PLACEMENT_3D('',#222,#223,#224);
#156=EDGE_LOOP('',(#225,#226,#227,#228));
#157=AXIS2_PLACEMENT_3D('',#229,#230,#231);
#158=EDGE_LOOP('',(#232,#233));
#159=EDGE_LOOP('',(#234,#235,#236,#237));
#160=AXIS2_PLACEMENT_3D('',#238,#239,#240);
#161=EDGE_LOOP('',(#241,#242,#243,#244));
#162=AXIS2_PLACEMENT_3D('',#245,#246,#247);
#163=EDGE_LOOP('',(#248,#249));
#164=EDGE_LOOP('',(#250,#251,#252,#253));
#165=AXIS2_PLACEMENT_3D('',#254,#255,#256);
#166=FILL_AREA_STYLE_COLOUR('',#257);
#167=ORIENTED_EDGE('',*,*,#258,.F.);
#168=ORIENTED_EDGE('',*,*,#259,.T.);
#169=ORIENTED_EDGE('',*,*,#260,.T.);
#170=ORIENTED_EDGE('',*,*,#261,.F.);
#171=ORIENTED_EDGE('',*,*,#262,.T.);
#172=ORIENTED_EDGE('',*,*,#263,.T.);
#173=CARTESIAN_POINT('',(-1.31513,0.0,0.15822));
#174=DIRECTION('',(0.0,1.0,0.0));
#175=DIRECTION('',(0.0,0.0,1.0));
#176=ORIENTED_EDGE('',*,*,#264,.F.);
#177=ORIENTED_EDGE('',*,*,#259,.F.);
#178=ORIENTED_EDGE('',*,*,#265,.F.);
#179=ORIENTED_EDGE('',*,*,#266,.F.);
#180=ORIENTED_EDGE('',*,*,#267,.F.);
#181=CARTESIAN_POINT('',(-1.06513,0.0,0.75));
#182=DIRECTION('',(0.0,0.0,-1.0));
#183=DIRECTION('',(0.0,1.0,0.0));
#184=ORIENTED_EDGE('',*,*,#268,.F.);
#185=ORIENTED_EDGE('',*,*,#269,.F.);
#186=ORIENTED_EDGE('',*,*,#270,.F.);
#187=ORIENTED_EDGE('',*,*,#271,.F.);
#188=ORIENTED_EDGE('',*,*,#263,.F.);
#189=ORIENTED_EDGE('',*,*,#258,.T.);
#190=ORIENTED_EDGE('',*,*,#271,.T.);
#191=ORIENTED_EDGE('',*,*,#272,.T.);
#192=ORIENTED_EDGE('',*,*,#261,.T.);
#193=ORIENTED_EDGE('',*,*,#273,.T.);
#194=ORIENTED_EDGE('',*,*,#265,.T.);
#195=CARTESIAN_POINT('',(-1.31513,0.0,0.15822));
#196=DIRECTION('',(0.0,1.0,0.0));
#197=DIRECTION('',(0.0,0.0,1.0));
#198=ORIENTED_EDGE('',*,*,#268,.T.);
#199=ORIENTED_EDGE('',*,*,#262,.F.);
#200=ORIENTED_EDGE('',*,*,#272,.F.);
#201=ORIENTED_EDGE('',*,*,#270,.T.);
#202=ORIENTED_EDGE('',*,*,#274,.F.);
#203=ORIENTED_EDGE('',*,*,#264,.T.);
#204=ORIENTED_EDGE('',*,*,#275,.F.);
#205=ORIENTED_EDGE('',*,*,#266,.T.);
#206=ORIENTED_EDGE('',*,*,#273,.F.);
#207=ORIENTED_EDGE('',*,*,#260,.F.);
#208=CARTESIAN_POINT('',(-1.06513,0.0,0.75));
#209=DIRECTION('',(0.0,0.0,-1.0));
#210=DIRECTION('',(0.0,1.0,0.0));
#211=ORIENTED_EDGE('',*,*,#276,.T.);
#212=ORIENTED_EDGE('',*,*,#277,.F.);
#213=ORIENTED_EDGE('',*,*,#278,.F.);
#214=ORIENTED_EDGE('',*,*,#279,.T.);
#215=CARTESIAN_POINT('',(-0.654049999999999,0.0113020880543996,0.5678));
#216=DIRECTION('',(1.0,-2.29186437860112E-31,6.12303176911191E-17));
#217=DIRECTION('',(-0.0,-1.0,-3.74302219067783E-15));
#218=ORIENTED_EDGE('',*,*,#276,.F.);
#219=ORIENTED_EDGE('',*,*,#280,.F.);
#220=ORIENTED_EDGE('',*,*,#281,.T.);
#221=ORIENTED_EDGE('',*,*,#282,.F.);
#222=CARTESIAN_POINT('',(2.7,-0.299999999999993,-0.881940000000001));
#223=DIRECTION('',(6.12303176911191E-17,3.73640463187386E-15,-1.0));
#224=DIRECTION('',(6.12303176911189E-17,1.0,3.73640463187386E-15));
#225=ORIENTED_EDGE('',*,*,#280,.T.);
#226=ORIENTED_EDGE('',*,*,#279,.F.);
#227=ORIENTED_EDGE('',*,*,#283,.F.);
#228=ORIENTED_EDGE('',*,*,#284,.T.);
#229=CARTESIAN_POINT('',(-2.1746979119456,-0.715395823891203,0.567799999999997));
#230=DIRECTION('',(2.85417254090924E-31,-1.0,-3.73640463187386E-15));
#231=DIRECTION('',(-1.0,0.0,-7.63882079730169E-17));
#232=ORIENTED_EDGE('',*,*,#275,.T.);
#233=ORIENTED_EDGE('',*,*,#267,.T.);
#234=ORIENTED_EDGE('',*,*,#283,.T.);
#235=ORIENTED_EDGE('',*,*,#278,.T.);
#236=ORIENTED_EDGE('',*,*,#285,.T.);
#237=ORIENTED_EDGE('',*,*,#286,.T.);
#238=CARTESIAN_POINT('',(2.7,-0.299999999999998,0.567799999999999));
#239=DIRECTION('',(6.12303176911191E-17,3.73640463187386E-15,-1.0));
#240=DIRECTION('',(6.12303176911189E-17,1.0,3.73640463187386E-15));
#241=ORIENTED_EDGE('',*,*,#282,.T.);
#242=ORIENTED_EDGE('',*,*,#287,.T.);
#243=ORIENTED_EDGE('',*,*,#285,.F.);
#244=ORIENTED_EDGE('',*,*,#277,.T.);
#245=CARTESIAN_POINT('',(-2.1746979119456,0.738000000000002,0.567800000000003));
#246=DIRECTION('',(7.63882079730167E-17,1.0,3.73640463187386E-15));
#247=DIRECTION('',(1.0,-7.63882079730169E-17,7.63882079730169E-17));
#248=ORIENTED_EDGE('',*,*,#274,.T.);
#249=ORIENTED_EDGE('',*,*,#269,.T.);
#250=ORIENTED_EDGE('',*,*,#287,.F.);
#251=ORIENTED_EDGE('',*,*,#281,.F.);
#252=ORIENTED_EDGE('',*,*,#284,.F.);
#253=ORIENTED_EDGE('',*,*,#286,.F.);
#254=CARTESIAN_POINT('',(-2.88948646268736,0.0,-0.0917392526411605));
#255=DIRECTION('',(-0.999837010564641,0.0,-0.0180541492505607));
#256=DIRECTION('',(0.0,1.0,0.0));
#257=COLOUR_RGB('',0.560784339904785,0.686274528503418,0.560784339904785);
#258=EDGE_CURVE('',#288,#289,#290,.T.);
#259=EDGE_CURVE('0:56',#288,#291,#292,.T.);
#260=EDGE_CURVE('0:56',#291,#293,#294,.T.);
#261=EDGE_CURVE('',#295,#293,#296,.T.);
#262=EDGE_CURVE('0:53',#295,#297,#298,.T.);
#263=EDGE_CURVE('0:50',#297,#289,#299,.T.);
#264=EDGE_CURVE('',#291,#300,#301,.T.);
#265=EDGE_CURVE('0:56',#302,#288,#303,.T.);
#266=EDGE_CURVE('',#304,#302,#305,.T.);
#267=EDGE_CURVE('0:62',#300,#304,#306,.T.);
#268=EDGE_CURVE('',#307,#297,#308,.T.);
#269=EDGE_CURVE('0:59',#309,#307,#310,.T.);
#270=EDGE_CURVE('',#311,#309,#312,.T.);
#271=EDGE_CURVE('0:50',#289,#311,#313,.T.);
#272=EDGE_CURVE('0:53',#311,#295,#314,.T.);
#273=EDGE_CURVE('0:56',#293,#302,#315,.T.);
#274=EDGE_CURVE('0:59',#307,#309,#316,.T.);
#275=EDGE_CURVE('0:62',#304,#300,#317,.T.);
#276=EDGE_CURVE('0:65',#318,#319,#320,.T.);
#277=EDGE_CURVE('0:68',#321,#319,#322,.F.);
#278=EDGE_CURVE('0:71',#323,#321,#324,.T.);
#279=EDGE_CURVE('0:74',#323,#318,#325,.T.);
#280=EDGE_CURVE('0:77',#326,#318,#327,.T.);
#281=EDGE_CURVE('0:80',#326,#328,#329,.F.);
#282=EDGE_CURVE('0:83',#319,#328,#330,.T.);
#283=EDGE_CURVE('0:86',#331,#323,#332,.T.);
#284=EDGE_CURVE('0:89',#331,#326,#333,.F.);
#285=EDGE_CURVE('0:92',#321,#334,#335,.T.);
#286=EDGE_CURVE('0:95',#334,#331,#336,.F.);
#287=EDGE_CURVE('0:98',#328,#334,#337,.F.);
#288=VERTEX_POINT('',#338);
#289=VERTEX_POINT('',#339);
#290=CIRCLE('',#340,0.3);
#291=VERTEX_POINT('',#341);
#292=CIRCLE('',#342,0.05);
#293=VERTEX_POINT('',#343);
#294=CIRCLE('',#344,0.05);
#295=VERTEX_POINT('',#345);
#296=CIRCLE('',#346,0.2);
#297=VERTEX_POINT('',#347);
#298=CIRCLE('',#348,0.05);
#299=CIRCLE('',#349,0.05);
#300=VERTEX_POINT('',#350);
#301=LINE('',#351,#352);
#302=VERTEX_POINT('',#353);
#303=CIRCLE('',#354,0.05);
#304=VERTEX_POINT('',#355);
#305=LINE('',#356,#357);
#306=CIRCLE('',#358,0.05);
#307=VERTEX_POINT('',#359);
#308=LINE('',#360,#361);
#309=VERTEX_POINT('',#362);
#310=CIRCLE('',#363,0.05);
#311=VERTEX_POINT('',#364);
#312=LINE('',#365,#366);
#313=CIRCLE('',#367,0.05);
#314=CIRCLE('',#368,0.05);
#315=CIRCLE('',#369,0.05);
#316=CIRCLE('',#370,0.05);
#317=CIRCLE('',#371,0.05);
#318=VERTEX_POINT('',#372);
#319=VERTEX_POINT('',#373);
#320=LINE('',#374,#375);
#321=VERTEX_POINT('',#376);
#322=LINE('',#377,#378);
#323=VERTEX_POINT('',#379);
#324=LINE('',#380,#381);
#325=LINE('',#382,#383);
#326=VERTEX_POINT('',#384);
#327=LINE('',#385,#386);
#328=VERTEX_POINT('',#387);
#329=LINE('',#388,#389);
#330=LINE('',#390,#391);
#331=VERTEX_POINT('',#392);
#332=LINE('',#393,#394);
#333=LINE('',#395,#396);
#334=VERTEX_POINT('',#397);
#335=LINE('',#398,#399);
#336=LINE('',#400,#401);
#337=LINE('',#402,#403);
#338=CARTESIAN_POINT('',(-1.01513,6.12323399573677E-18,0.15822));
#339=CARTESIAN_POINT('',(-1.30971375522483,6.12323399573677E-18,-0.141731103169393));
#340=AXIS2_PLACEMENT_3D('',#404,#405,#406);
#341=CARTESIAN_POINT('',(-1.06513,0.05,0.15822));
#342=AXIS2_PLACEMENT_3D('',#407,#408,#409);
#343=CARTESIAN_POINT('',(-1.11513,6.12323399573677E-18,0.15822));
#344=AXIS2_PLACEMENT_3D('',#410,#411,#412);
#345=CARTESIAN_POINT('',(-1.31151917014989,6.12323399573677E-18,-0.0417474021129284));
#346=AXIS2_PLACEMENT_3D('',#413,#414,#415);
#347=CARTESIAN_POINT('',(-1.31061646268736,0.05,-0.0917392526411605));
#348=AXIS2_PLACEMENT_3D('',#416,#417,#418);
#349=AXIS2_PLACEMENT_3D('',#419,#420,#421);
#350=CARTESIAN_POINT('',(-1.06513,0.05,0.567799999999999));
#351=CARTESIAN_POINT('',(-1.06513,0.05,0.363009999999999));
#352=VECTOR('',#422,1.0);
#353=CARTESIAN_POINT('',(-1.06513,-0.05,0.15822));
#354=AXIS2_PLACEMENT_3D('',#423,#424,#425);
#355=CARTESIAN_POINT('',(-1.06513,-0.05,0.567799999999999));
#356=CARTESIAN_POINT('',(-1.06513,-0.05,0.363009999999999));
#357=VECTOR('',#426,1.0);
#358=AXIS2_PLACEMENT_3D('',#427,#428,#429);
#359=CARTESIAN_POINT('',(-2.88948646268736,0.05,-0.0917392526411605));
#360=CARTESIAN_POINT('',(-1.31061646268736,0.05,-0.0917392526411605));
#361=VECTOR('',#430,1.0);
#362=CARTESIAN_POINT('',(-2.88948646268736,-0.05,-0.0917392526411605));
#363=AXIS2_PLACEMENT_3D('',#431,#432,#433);
#364=CARTESIAN_POINT('',(-1.31061646268736,-0.05,-0.0917392526411605));
#365=CARTESIAN_POINT('',(-1.31061646268736,-0.05,-0.0917392526411605));
#366=VECTOR('',#434,1.0);
#367=AXIS2_PLACEMENT_3D('',#435,#436,#437);
#368=AXIS2_PLACEMENT_3D('',#438,#439,#440);
#369=AXIS2_PLACEMENT_3D('',#441,#442,#443);
#370=AXIS2_PLACEMENT_3D('',#444,#445,#446);
#371=AXIS2_PLACEMENT_3D('',#447,#448,#449);
#372=CARTESIAN_POINT('',(-0.654049999999999,-0.715395823891197,-0.881940000000003));
#373=CARTESIAN_POINT('',(-0.654049999999999,0.738000000000007,-0.881939999999997));
#374=CARTESIAN_POINT('',(-0.654049999999999,-0.144348955972794,-0.881940000000001));
#375=VECTOR('',#450,1.0);
#376=CARTESIAN_POINT('',(-0.654049999999999,0.738000000000002,0.567800000000003));
#377=CARTESIAN_POINT('',(-0.654049999999999,0.738000000000002,0.567800000000003));
#378=VECTOR('',#451,1.0);
#379=CARTESIAN_POINT('',(-0.654049999999999,-0.715395823891203,0.567799999999997));
#380=CARTESIAN_POINT('',(-0.654049999999999,-0.144348955972799,0.567799999999999));
#381=VECTOR('',#452,1.0);
#382=CARTESIAN_POINT('',(-0.654049999999999,-0.715395823891203,0.567799999999997));
#383=VECTOR('',#453,1.0);
#384=CARTESIAN_POINT('',(-2.87521773480474,-0.715395823891197,-0.881940000000003));
#385=CARTESIAN_POINT('',(-2.9013958238912,-0.715395823891197,-0.881940000000003));
#386=VECTOR('',#454,1.0);
#387=CARTESIAN_POINT('',(-2.87521773480474,0.738000000000008,-0.881939999999997));
#388=CARTESIAN_POINT('',(-2.87521773480474,0.00565104402720408,-0.88194));
#389=VECTOR('',#455,1.0);
#390=CARTESIAN_POINT('',(-2.7442958238912,0.738000000000008,-0.881939999999997));
#391=VECTOR('',#456,1.0);
#392=CARTESIAN_POINT('',(-2.9013958238912,-0.715395823891203,0.567799999999997));
#393=CARTESIAN_POINT('',(-2.9013958238912,-0.715395823891203,0.567799999999997));
#394=VECTOR('',#457,1.0);
#395=CARTESIAN_POINT('',(-2.88887315066622,-0.7153958238912,-0.125704412076468));
#396=VECTOR('',#458,1.0);
#397=CARTESIAN_POINT('',(-2.9013958238912,0.738000000000002,0.567800000000003));
#398=CARTESIAN_POINT('',(-1.448,0.738000000000002,0.567800000000003));
#399=VECTOR('',#459,1.0);
#400=CARTESIAN_POINT('',(-2.9013958238912,0.00565104402719865,0.5678));
#401=VECTOR('',#460,1.0);
#402=CARTESIAN_POINT('',(-2.88887315066622,0.738000000000005,-0.125704412076462));
#403=VECTOR('',#461,1.0);
#404=CARTESIAN_POINT('',(-1.31513,6.12323399573677E-18,0.15822));
#405=DIRECTION('',(0.0,1.0,0.0));
#406=DIRECTION('',(0.0,0.0,-1.0));
#407=CARTESIAN_POINT('',(-1.06513,0.0,0.15822));
#408=DIRECTION('',(0.0,-0.0,1.0));
#409=DIRECTION('',(0.0,1.0,0.0));
#410=CARTESIAN_POINT('',(-1.06513,0.0,0.15822));
#411=DIRECTION('',(0.0,-0.0,1.0));
#412=DIRECTION('',(0.0,1.0,0.0));
#413=CARTESIAN_POINT('',(-1.31513,6.12323399573677E-18,0.15822));
#414=DIRECTION('',(0.0,-1.0,-0.0));
#415=DIRECTION('',(0.0,0.0,-1.0));
#416=CARTESIAN_POINT('',(-1.31061646268736,0.0,-0.0917392526411605));
#417=DIRECTION('',(-0.999837010564641,0.0,-0.0180541492505607));
#418=DIRECTION('',(0.0,1.0,0.0));
#419=CARTESIAN_POINT('',(-1.31061646268736,0.0,-0.0917392526411605));
#420=DIRECTION('',(-0.999837010564641,0.0,-0.0180541492505607));
#421=DIRECTION('',(0.0,1.0,0.0));
#422=DIRECTION('',(-0.0,-0.0,1.0));
#423=CARTESIAN_POINT('',(-1.06513,0.0,0.15822));
#424=DIRECTION('',(0.0,-0.0,1.0));
#425=DIRECTION('',(0.0,1.0,0.0));
#426=DIRECTION('',(0.0,-0.0,-1.0));
#427=CARTESIAN_POINT('',(-1.06513,0.0,0.567799999999999));
#428=DIRECTION('',(6.12303176911191E-17,3.73640463187386E-15,-1.0));
#429=DIRECTION('',(-2.28781242632205E-31,1.0,3.73640463187386E-15));
#430=DIRECTION('',(1.0,-0.0,-0.0));
#431=CARTESIAN_POINT('',(-2.88948646268736,0.0,-0.0917392526411605));
#432=DIRECTION('',(0.999837010564641,-0.0,0.0180541492505607));
#433=DIRECTION('',(0.0,1.0,0.0));
#434=DIRECTION('',(-1.0,-0.0,0.0));
#435=CARTESIAN_POINT('',(-1.31061646268736,0.0,-0.0917392526411605));
#436=DIRECTION('',(-0.999837010564641,0.0,-0.0180541492505607));
#437=DIRECTION('',(0.0,1.0,0.0));
#438=CARTESIAN_POINT('',(-1.31061646268736,0.0,-0.0917392526411605));
#439=DIRECTION('',(-0.999837010564641,0.0,-0.0180541492505607));
#440=DIRECTION('',(0.0,1.0,0.0));
#441=CARTESIAN_POINT('',(-1.06513,0.0,0.15822));
#442=DIRECTION('',(0.0,-0.0,1.0));
#443=DIRECTION('',(0.0,1.0,0.0));
#444=CARTESIAN_POINT('',(-2.88948646268736,0.0,-0.0917392526411605));
#445=DIRECTION('',(0.999837010564641,-0.0,0.0180541492505607));
#446=DIRECTION('',(0.0,1.0,0.0));
#447=CARTESIAN_POINT('',(-1.06513,0.0,0.567799999999999));
#448=DIRECTION('',(6.12303176911191E-17,3.73640463187386E-15,-1.0));
#449=DIRECTION('',(-2.28781242632205E-31,1.0,3.73640463187386E-15));
#450=DIRECTION('',(4.05195227906926E-34,1.0,3.73640463187386E-15));
#451=DIRECTION('',(-6.12303176911191E-17,-3.73640463187386E-15,1.0));
#452=DIRECTION('',(4.05195227906926E-34,1.0,3.73640463187386E-15));
#453=DIRECTION('',(6.12303176911191E-17,3.73640463187386E-15,-1.0));
#454=DIRECTION('',(1.0,-1.07007261322623E-63,7.63882079730169E-17));
#455=DIRECTION('',(6.74686035539346E-17,-1.0,-3.73640463187386E-15));
#456=DIRECTION('',(-1.0,-5.66360114587189E-32,-6.12303176911191E-17));
#457=DIRECTION('',(1.0,0.0,7.63882079730169E-17));
#458=DIRECTION('',(-0.0180541492505607,-3.73579563739264E-15,0.999837010564641));
#459=DIRECTION('',(-1.0,7.63882079730169E-17,-7.63882079730169E-17));
#460=DIRECTION('',(-6.74686035539346E-17,1.0,3.73640463187386E-15));
#461=DIRECTION('',(0.0180541492505607,3.73579563739264E-15,-0.999837010564641));
#462=PRESENTATION_LAYER_ASSIGNMENT('9','\X2\0421043B043E0439\X0\0',(#25));
ENDSEC;
END-ISO-10303-21;
